Kunci Gitar + Tab: Dewa 19 - Dewi



Intro : Am7 Em7 Fmaj7 C E7
During intro:
  Am7                                                Em7 
e|---------------------------|-------------------------||
B|---------------------------|-------------------------||
G|--------------------5--7/9-|------------------5-7-5--||
D|--7\9--9/7----5--7---------|--7\9--9/7----5-7--------||
A|--5\7--7/5--5--------------|--5\7--7/5--5------------||
E|---------------------------|-------------------------||

  Fmaj7                        C         E7
e|---------------------------|-------------------------||
B|---------------------------|-------------------------||
G|--------------------5--7/9-|------------------5-7-5--||
D|--7\9--9/7----5--7---------|--7\9--9/7----5-7--------||
A|--5\7--7/5--5--------------|--5\7--7/5--5------------||
E|---------------------------|-------------------------||


Am7            Dm7
Dewi aku mohon beri kesempatan
     G/G7
Tuk bisa menebus
   C        E7 
Dosa ku kepada mu
Am7            Dm7 
Maafkanlah aku yang menyakitimu
   G           
Aku tidak pernah
   C               E7
Menyangka bisa begini
Fmaj7
Owhh...dewi
Fmaj7
Dengarkanlah...


Reff:

C
Dewi...
    E7
Kaulah hidupku...
    Gm7                    Asus4  A 
Aku cinta pada mu sampai mati...
       Fmaj7
Ohh..Dewi...
           Fm7
Belahlah dada ku...
            C   Am
Agar kau tahu...
               G  
Agar kau mengerti...
G7
Woo uu wooo uhhhh...
Em
Woo uu ooo....

  Am7                                           Em7 
e|---------------------------|-------------------------||
B|---------------------------|-------------------------||
G|--------------------5--7/9-|------------------5-7-5--||
D|--7\9--9/7----5--7---------|--7\9--9/7----5-7--------||
A|--5\7--7/5--5--------------|--5\7--7/5--5------------||
E|---------------------------|-------------------------||
  Fmaj7                        C           E7
e|---------------------------|-------------------------||
B|---------------------------|-------------------------||
G|--------------------5--7/9-|------------------5-7-5--||
D|--7\9--9/7----5--7---------|--7\9--9/7----5-7--------||
A|--5\7--7/5--5--------------|--5\7--7/5--5------------||
E|---------------------------|-------------------------||


 Am7               Dm7
Semua terjadi begitu saja
        G/G7
Tak ada yang serius
     C       E7  
Antara dia dan aku
    Am7                   Dm7
Tak ada cinta dan tak ada hati
     G/G7
Hanya kerna aku
  C            E7
Lelaki dan dia wanita

Fmaj7
Owhh...Dewi
Fmaj7
Dengarkanlah...

Nonton Videonya:

Artikel Terkait

Previous
Next Post »