Home | Sitemap | Privacy Policy | Contact | About Us
| Pasang Iklan

Kunci Gitar: Maroon 5 - Daylight

Sabtu, 13 April 2013

Bagikan ke :


Intro/verse
Finger Picking
E|-2-2-2-2-2-2-2-2-0-0-0-0-0-0-0-0----------------------------|
B|-3-3-3-3-3-3-3-3-3-3-3-3-3-3-3-3----------------------------|
G|-2-2-2-2-2-2-2-2-2-2-2-2-2-2-2-2----------------------------|
D|------------------------------------------------------------|
A|------------------------------------------------------------|
E|------------------------------------------------------------|

Pre-chorus
e|--------------------------------------------------------------------------------------------|
B|-3-3-3-3-3-3-3-3-3-3-3-3-3-3-3-3-3-3-3-3-3-3-3-3-3-3-3-3-3-3-3-3--|
G|-2-2-2-2-2-2-2-2-2-2-2-2-2-2-2-2-2-2-2-2-2-2-2-2-2-2-2-2-2-2-2-2--|
D|-0-0-0-0-0-0-0-0----------------------------------------------------------------------|
A|---------------------------------2-2-2-2-2-2-2-2-------------------------------------------------|
E|-----------------3-3-3-3-3-3-3-3-----------------3-3-3-3-3-3-3-3---------------------------|

e|--------------------------------------------------------------------------------------------------------|
B|-3-3-3-3-3-3-3-3-3-3-3-3-3-3-3-3-3-3-3-3-3-3-3-3-3-3-3-3-3-3-3-3-3-3-3-3-3-|
G|-2-2-2-2-2-2-2-2-2-2-2-2-2-2-2-2-2-2-2-2-2-2-2-2-2-2-2-2-2-2-2-2-2-2-2-2-2-|
D|-0-0-0-0-0-0-0-0---------------------------------0-0-0-0-0-0-0-0-0-0-0-0-0--------------|
A|---------------------------------2-2-2-2-2-2-2-2--------------------------------------------------|
E|-----------------3-3-3-3-3-3-3-3------------------------------------------------------------------|

Verse 1 ( Gunakan Tab di atas )
D
Here I am waiting

I'll have to leave soon
G        A
Why am I holding on
D
We knew this day would come

We knew it all along
G          A
How did it come so fast

Pre-chorus ( Gunakan Tab di atas )
Bm          G
This is our last night
         D
But it's late
        G      A      Bm
And I'm trying not to sleep
G
Cause I know
D
When I wake
       G        A    D
I will have to slip away

CHORUS
                D                Bm
And when the daylight comes i'll have to go
       G                       D
But tonight i'm gonna hold you so close
                D              Bm
Cause in the daylight we'll be on our own
       G                       D
But tonight I need to hold you so close
   D        Bm          G    D
Oh-woah, oh-woah, oh-woaaaaaaaaah
   D        Bm          G    D
Oh-woah, oh-woah, oh-woaaaaaaaaah

Verse 2
D
Here I am staring

At you're perfection
G
In my arms
A
So beautiful
D
The sky is getting bright

The stars are burning out
G
Somebody
A
Slow it down

Pre-Chorus
Bm          G
This is way too hard
D
Cause I know
G              A
When the sun comes up
Bm
I will leave
G          D 
This is my last glance
          G       A     D
That will soon be memory


CHORUS

                D                Bm
And when the daylight comes i'll have to go
       G                       D
But tonight i'm gonna hold you so close
                D              Bm
Cause in the daylight we'll be on our own
       G                       D
But tonight I need to hold you so close
   D        Bm          G    D
Oh-woah, oh-woah, oh-woaaaaaaaaah
   D        Bm          G    D
Oh-woah, oh-woah, oh-woaaaaaaaaah


CHORUS
                D                Bm
And when the daylight comes i'll have to go
       G                       D
But tonight i'm gonna hold you so close
                D              Bm
Cause in the daylight we'll be on our own
       G                       D
But tonight I need to hold you so close
D                Bm
And when the daylight comes i'll have to go
       G                       D
But tonight i'm gonna hold you so close
                D              Bm
Cause in the daylight we'll be on our own
       G                       D
But tonight I need to hold you so close
   D        Bm          G    D
Oh-woah, oh-woah, oh-woaaaaaaaaah
   D        Bm          G    D
Oh-woah, oh-woah, oh-woaaaaaaaaah

Nonton Videonya:

Bagikan :

1 komentar:

Daftar Menu